13 de febrero de 2008

Metal Gear Solid... en orquesta

6º Mandamiento del bloguero: No te dedicarás a postear vídeos de Yotube, No te dedicarás a postear vídeos de Yotube, No te dedicarás a postear vídeos de Yotube, No te dedicarás a postear vídeos de Yotube...

No he podido evitarlo, me encanta este vídeo, incluso me puede llegar a poner los pelos de punta. El solo de guitarra del 3:09... en fin, una delicia, le vuelven a uno las ganas de jugar al Metar Gear Solid.





pd: quiero ver a esa orquesta y escuchar esa música en persona!

3 comentarios:

Naranjo dijo...
Este comentario ha sido eliminado por el autor.
Naranjo dijo...

Wooooow, que wapo. Por cierto, es mi juego favorito.

Solo de guitarra.

E------------------------------------------------
B------------------------------------------------
G------------------------------------2-0---------
D-2--0---------0-2---2--0------0-2--------2----0-
A-------3----------0--------3--------------3-----
E------------------------------------------------

E-----------------------------------------------
B----1---0-1-3—1-----------0---1-0--------------
G--2---------------2---0-2----------2-0-2-------
D-2---------------------------------------------
A-----------------------------------------------
E-----------------------------------------------

maggie dijo...

tienes un meme en ni blog 8-)